Текст песни Ария - Что вы сделали с ...(tab)

Здесь вы найдете слова песни Ария - Что вы сделали с ...(tab). Наши пользователи находят тексты песен из различных источников в интернете, также добавялют самостоятельно. Вы можете скачать текст песни Ария - Что вы сделали с ...(tab) и его перевод. Также вы можете добавить свой вариант текста «Что вы сделали с ...(tab)» или его перевод для сайта Pesni.net!
Подбоp: Alexey Shamaev, 2:5095/28.27

1||--------------------|--------------------|--------------------------|
2||--------8--7--3--5--|--------2--3--5-----|--------8--7--10--3h5--5--|
3||--------------------|-----------------2--|--------------------------|
4||-----9--------------|-----9--------------|-----9--------------------|
5||--7-----------------|--7-----------------|--7-----------------------|
6||--------------------|--------------------|--------------------------|

1||--------------------|--------------------|------------------7~~~--|
2||--------8--7--3--5--|--------2--3--5-----|--------8--7--10--------|
3||--------------------|-----------------2--|------------------------|
4||-----9--------------|-----9--------------|-----9------------------|
5||--7-----------------|--7-----------------|--7---------------------|
6||--------------------|--------------------|------------------------|

1||--0-----------------|--2-----------------|--0------------------0--|
2||--0-----------------|--2-----------------|--1------------------0--|
3||--0-----------------|--2-----------------|--2------------------0--|
4||--2-----------------|--4-----------------|--2------------------2--|
5||--2-----------------|--4-----------------|--0------------------2--|
6||--0-----------------|--2-----------------|--0------------------0--|

1||--7--5------------7--5------------7--5---------7h5------------
2||--------5--5-8-5--------5--5-8-5--------5-8-5------5--5-8-5---
3||--------------------------------------------------------------
4||--------------------------------------------------------------
5||--------------------------------------------------------------
6||--------------------------------------------------------------

1||--7--5------------7--5------------7--5---------7h5-5-5~~--
2||--------5--5-8-5--------5--5-8-5--------5-8-5-------------
3||----------------------------------------------------------
4||----------------------------------------------------------
5||----------------------------------------------------------
6||----------------------------------------------------------
Вы можете предложить свой вариант текста песни «Что вы сделали с ...(tab)» Ария с аккордами или табами. Также принимается перевод песни «Что вы сделали с ...(tab)». Если вы не нашли что искали, то можете просмотреть все тексты песен исполнителя Ария или воспользоваться поиском по сайту.