Текст песни Кино, Виктор Цой - Восьмиклассница

Здесь вы найдете слова песни Кино, Виктор Цой - Восьмиклассница. Наши пользователи находят тексты песен из различных источников в интернете, также добавялют самостоятельно. Вы можете скачать текст песни Кино, Виктор Цой - Восьмиклассница и его перевод. Также вы можете добавить свой вариант текста «Восьмиклассница» или его перевод для сайта Pesni.net!
Am Em
Пустынной улицей вдвоем
C G
С тобой куда-то мы идем,
F G C Am
И я курю, а ты конфеты ешь.
Am Em
И светят фонари давно,
C G
Ты говоришь: "Пойдем в кино",
F G C Am
А я тебя зову в кабак, конечно.

F G C Am
У-у, восьмиклассница,
F G
У-у... /Am Em/

Ты говоришь, что у тебя по географии трояк,
А мне на это просто наплевать.
Ты говоришь, из-за тебя там кто-то получил синяк,
Многозначительно молчу, и дальше мы идем гулять.

Мамина помада, сапоги старшей сестры.
Мне легко с тобой, а ты гордишься мной,
Ты любишь своих кукол и воздушные шары.
Но в 10 ровно мама ждет тебя домой.

Подкладка под проигрыш.

- natural harmonic.

|---Am--------Em-------------Am--------Em--------------------------|
| |
e|-----------------------------------------------------|
b|---------------------------------------------------|
g|------------------------------------------------------------|

Соло.

|--Am-----------C-----G--------<не помню>--------------------------|
| |
e|---------------------------0--------------------------------------|
b|----0-1-0--1-----------------3-1--0---1-------0-1-0--1------------|
g|--2-----------/4-----2----------------------2-----------/4----2---|
d|------------------------------------------------------------------|
a|------------------------------------------------------------------|
E|------------------------------------------------------------------|

|--------------C---------------------------------------------------|
| |
e|------------------------------------------------------------------|
b|------0-----0-1---------------------------------------------------|
g|--0-2-----2-------------------------------------------------------|
d|------------------------------------------------------------------|
a|------------------------------------------------------------------|
E|------------------------------------------------------------------|

Tabbed by Dead Moroz, checked by Ksavera - 3.07.97
Вы можете предложить свой вариант текста песни «Восьмиклассница» Кино, Виктор Цой с аккордами или табами. Также принимается перевод песни «Восьмиклассница». Если вы не нашли что искали, то можете просмотреть все тексты песен исполнителя Кино, Виктор Цой или воспользоваться поиском по сайту.