Текст песни Любэ - За тебя

Здесь вы найдете слова песни Любэ - За тебя. Наши пользователи находят тексты песен из различных источников в интернете, также добавялют самостоятельно. Вы можете скачать текст песни Любэ - За тебя и его перевод. Также вы можете добавить свой вариант текста «За тебя» или его перевод для сайта Pesni.net!
Вступление и проигрыш (они одинаковые):

1:|-------------------------------------------------------------
2:|-------------------------------------------------------------
3:|-------------------------------------------------------------
4:|-5-4-2-----2-4-5-----5-4-4-2---0-----------------------------
5:|---------------------------------3-2-----2-3-5-----5-2-3-----
6:|-------------------------------------------------------------

1:|--------------------
2:|--------------------
3:|--------------------
4:|--------------------
5:|3-0-2-----3-2-0-----
6:|------0-------------

Em
Помнишь детские годы, помнишь бился я в кровь?
G
За тебя, за тебя, за тебя.
Am Em
Было маме заботы: то коленки, то бровь. За тебя.

А потом были страны, где дорог - полотно.
За тебя, за тебя, за тебя.
И стреляли душманы, и спасало одно: За тебя.

Am D G Em
Пр.: Родинка, что зернышко, - на плече видна.
Am D G Em
За тебя до донышка, выпью я до дна.
Am-D G Em
За тебя.... За тебя...
Am-D Em
За тебя.

Проигрыш. См. выше.

Спето песен немало на бульварах ночных.
За тебя, за тебя, за тебя.
Удивлялись ребята: я не пел для других. За тебя.

Все закаты, восходы я пройду вновь и вновь.
За тебя, за тебя, за тебя.
Помнишь детские годы? За тебя бился в кровь. За тебя.
Вы можете предложить свой вариант текста песни «За тебя» Любэ с аккордами или табами. Также принимается перевод песни «За тебя». Если вы не нашли что искали, то можете просмотреть все тексты песен исполнителя Любэ или воспользоваться поиском по сайту.