Текст песни Фидошные песни - Diablo Town Theme

Здесь вы найдете слова песни Фидошные песни - Diablo Town Theme. Наши пользователи находят тексты песен из различных источников в интернете, также добавялют самостоятельно. Вы можете скачать текст песни Фидошные песни - Diablo Town Theme и его перевод. Также вы можете добавить свой вариант текста «Diablo Town Theme» или его перевод для сайта Pesni.net!
Am
E||-----------0--------------|-----------0--------------|
B||--------1--------1-----1--|--------1--------1-----1--|
G||-----2--------2-----------|-----2--------2-----------|
D||--------------------2-----|--------------------------|
A||--0-----------------------|--0-----------------0-----|
E||--------------------------|--------------------------|

Emadd9 Em Emadd9 Em
-----------2--------0-----|-----------2--------0-----|
--------0-----0--------0--|--------0-----0--------0--|
-----0-----------0--------|-----0-----------0--------|
--------------------------|--------------------------|
--2-----------------------|--2-----------------------|
--------------------------|--------------------------|

B7
--------------------------|--------------------------|
--------0-----------------|--0-----------0-----------|
-----------2-----------2--|-----2-----------2--------|
-----1--------1-----1-----|--------1-----------1-----|
--2--------------2--------|-----------2-----------2--|
--------------------------|--------------------------|

Dmadd9 E7
--0-----------0-----------|--0-----------0----------||
-----6-----------6--------|-----5-----------5-------||
--------7-----------7-----|--------7-----------7----||
-----------7--------------|-----------6-------------||
--0--------------------0--|--7----------------------||
--------------------------|-------------------------||

Вы можете предложить свой вариант текста песни «Diablo Town Theme» Фидошные песни с аккордами или табами. Также принимается перевод песни «Diablo Town Theme». Если вы не нашли что искали, то можете просмотреть все тексты песен исполнителя Фидошные песни или воспользоваться поиском по сайту.