Текст песни Тараканы - Прекрасное далеко

Здесь вы найдете слова песни Тараканы - Прекрасное далеко. Наши пользователи находят тексты песен из различных источников в интернете, также добавялют самостоятельно. Вы можете скачать текст песни Тараканы - Прекрасное далеко и его перевод. Также вы можете добавить свой вариант текста «Прекрасное далеко» или его перевод для сайта Pesni.net!
E||------------------|--------------7-----------|
B||--------------0-2-|--4--4--4--4------4---4-4-|
G||------------------|--------------------------|

|------0----------------|--------------0---0-------|-----------------0-2-|
|--4-----2------------0-|--2--2--2--2----------4-2-|--0------------------|
|-------------------3---|--------------------------|---------------------|

|--4--4--4--4--2---0-------|--0-------------0-2-|--4--4--4--4--4---4---3-4-|
|----------------------4-2-|-------4------------|--------------------------|
|--------------------------|--------------------|--------------------------|

|--6-----------------|--7--7--7--7--7----6--6--|--9--9--7--6--6---7-4--4--|
|-----------------4--|-------------------------|--------------------------|
|--------------------|-------------------------|--------------------------|

|--4--4--4--4------7-11--11--|--9----11--11-------|--7--7--7--7--7----6--6--|
|--------------7-------------|--------------------|-------------------------|
|----------------------------|-----------------8--|-------------------------|

|--9---9-7--6--6---7-4--4--|--4--4--2--0----4-7-------|-----3--6--3--4------|
|--------------------------|--------------4--------4--|--4------------------|
|--------------------------|--------------------------|---------------------|
Вы можете предложить свой вариант текста песни «Прекрасное далеко» Тараканы с аккордами или табами. Также принимается перевод песни «Прекрасное далеко». Если вы не нашли что искали, то можете просмотреть все тексты песен исполнителя Тараканы или воспользоваться поиском по сайту.